  0
SECTION
  2
HEADER
  9
$ACADVER
  1
AC1015
  9
$ACADMAINTVER
 70
     6
  9
$DWGCODEPAGE
  3
ANSI_1254
  9
$INSBASE
 10
0.0
 20
0.0
 30
0.0
  9
$EXTMIN
 10
0.0
 20
0.0
 30
0.0
  9
$EXTMAX
 10
279.4
 20
215.9
 30
0.0
  9
$LIMMIN
 10
0.0
 20
0.0
  9
$LIMMAX
 10
279.4
 20
215.9
  9
$ORTHOMODE
 70
     0
  9
$REGENMODE
 70
     1
  9
$FILLMODE
 70
     1
  9
$QTEXTMODE
 70
     0
  9
$MIRRTEXT
 70
     1
  9
$LTSCALE
 40
1.0
  9
$ATTMODE
 70
     1
  9
$TEXTSIZE
 40
3.5
  9
$TRACEWID
 40
1.0
  9
$TEXTSTYLE
  7
Standard
  9
$CLAYER
  8
0
  9
$CELTYPE
  6
ByLayer
  9
$CECOLOR
 62
   256
  9
$CELTSCALE
 40
1.0
  9
$DISPSILH
 70
     0
  9
$DIMSCALE
 40
1.0
  9
$DIMASZ
 40
3.5
  9
$DIMEXO
 40
1.0
  9
$DIMDLI
 40
3.75
  9
$DIMRND
 40
0.0
  9
$DIMDLE
 40
0.0
  9
$DIMEXE
 40
1.0
  9
$DIMTP
 40
0.0
  9
$DIMTM
 40
0.0
  9
$DIMTXT
 40
3.5
  9
$DIMCEN
 40
2.5
  9
$DIMTSZ
 40
0.0
  9
$DIMTOL
 70
     0
  9
$DIMLIM
 70
     0
  9
$DIMTIH
 70
     1
  9
$DIMTOH
 70
     1
  9
$DIMSE1
 70
     0
  9
$DIMSE2
 70
     0
  9
$DIMTAD
 70
     1
  9
$DIMZIN
 70
     0
  9
$DIMBLK
  1

  9
$DIMASO
 70
     1
  9
$DIMSHO
 70
     1
  9
$DIMPOST
  1

  9
$DIMAPOST
  1

  9
$DIMALT
 70
     0
  9
$DIMALTD
 70
     3
  9
$DIMALTF
 40
0.0393700787
  9
$DIMLFAC
 40
1.0
  9
$DIMTOFL
 70
     1
  9
$DIMTVP
 40
0.0
  9
$DIMTIX
 70
     0
  9
$DIMSOXD
 70
     0
  9
$DIMSAH
 70
     0
  9
$DIMBLK1
  1

  9
$DIMBLK2
  1

  9
$DIMSTYLE
  2
ISO-25
  9
$DIMCLRD
 70
     0
  9
$DIMCLRE
 70
     0
  9
$DIMCLRT
 70
     0
  9
$DIMTFAC
 40
1.0
  9
$DIMGAP
 40
1.524
  9
$DIMJUST
 70
     0
  9
$DIMSD1
 70
     0
  9
$DIMSD2
 70
     0
  9
$DIMTOLJ
 70
     0
  9
$DIMTZIN
 70
     0
  9
$DIMALTZ
 70
     0
  9
$DIMALTTZ
 70
     0
  9
$DIMUPT
 70
     0
  9
$DIMDEC
 70
     2
  9
$DIMTDEC
 70
     2
  9
$DIMALTU
 70
     2
  9
$DIMALTTD
 70
     3
  9
$DIMTXSTY
  7
Standard
  9
$DIMAUNIT
 70
     0
  9
$DIMADEC
 70
     2
  9
$DIMALTRND
 40
0.0
  9
$DIMAZIN
 70
     0
  9
$DIMDSEP
 70
    44
  9
$DIMATFIT
 70
     3
  9
$DIMFRAC
 70
     0
  9
$DIMLDRBLK
  1

  9
$DIMLUNIT
 70
     2
  9
$DIMLWD
 70
    -2
  9
$DIMLWE
 70
    -2
  9
$DIMTMOVE
 70
     0
  9
$LUNITS
 70
     2
  9
$LUPREC
 70
     2
  9
$SKETCHINC
 40
1.0
  9
$FILLETRAD
 40
10.0
  9
$AUNITS
 70
     0
  9
$AUPREC
 70
     2
  9
$MENU
  1
.
  9
$ELEVATION
 40
0.0
  9
$PELEVATION
 40
0.0
  9
$THICKNESS
 40
0.0
  9
$LIMCHECK
 70
     0
  9
$CHAMFERA
 40
0.0
  9
$CHAMFERB
 40
0.0
  9
$CHAMFERC
 40
0.0
  9
$CHAMFERD
 40
0.0
  9
$SKPOLY
 70
     0
  9
$TDCREATE
 40
2458985.682259271
  9
$TDUCREATE
 40
2458985.557259271
  9
$TDUPDATE
 40
2458985.682259526
  9
$TDUUPDATE
 40
2458985.557259526
  9
$TDINDWG
 40
0.0000000116
  9
$TDUSRTIMER
 40
0.0000000116
  9
$USRTIMER
 70
     1
  9
$ANGBASE
 50
0.0
  9
$ANGDIR
 70
     0
  9
$PDMODE
 70
     0
  9
$PDSIZE
 40
-1.0
  9
$PLINEWID
 40
0.0
  9
$SPLFRAME
 70
     0
  9
$SPLINETYPE
 70
     6
  9
$SPLINESEGS
 70
     8
  9
$HANDSEED
  5
CB
  9
$SURFTAB1
 70
     6
  9
$SURFTAB2
 70
     6
  9
$SURFTYPE
 70
     6
  9
$SURFU
 70
     6
  9
$SURFV
 70
     6
  9
$UCSBASE
  2

  9
$UCSNAME
  2

  9
$UCSORG
 10
0.0
 20
0.0
 30
0.0
  9
$UCSXDIR
 10
1.0
 20
0.0
 30
0.0
  9
$UCSYDIR
 10
0.0
 20
1.0
 30
0.0
  9
$UCSORTHOREF
  2

  9
$UCSORTHOVIEW
 70
     0
  9
$UCSORGTOP
 10
0.0
 20
0.0
 30
0.0
  9
$UCSORGBOTTOM
 10
0.0
 20
0.0
 30
0.0
  9
$UCSORGLEFT
 10
0.0
 20
0.0
 30
0.0
  9
$UCSORGRIGHT
 10
0.0
 20
0.0
 30
0.0
  9
$UCSORGFRONT
 10
0.0
 20
0.0
 30
0.0
  9
$UCSORGBACK
 10
0.0
 20
0.0
 30
0.0
  9
$PUCSBASE
  2

  9
$PUCSNAME
  2

  9
$PUCSORG
 10
0.0
 20
0.0
 30
0.0
  9
$PUCSXDIR
 10
1.0
 20
0.0
 30
0.0
  9
$PUCSYDIR
 10
0.0
 20
1.0
 30
0.0
  9
$PUCSORTHOREF
  2

  9
$PUCSORTHOVIEW
 70
     0
  9
$PUCSORGTOP
 10
0.0
 20
0.0
 30
0.0
  9
$PUCSORGBOTTOM
 10
0.0
 20
0.0
 30
0.0
  9
$PUCSORGLEFT
 10
0.0
 20
0.0
 30
0.0
  9
$PUCSORGRIGHT
 10
0.0
 20
0.0
 30
0.0
  9
$PUCSORGFRONT
 10
0.0
 20
0.0
 30
0.0
  9
$PUCSORGBACK
 10
0.0
 20
0.0
 30
0.0
  9
$USERI1
 70
     0
  9
$USERI2
 70
     0
  9
$USERI3
 70
     0
  9
$USERI4
 70
     0
  9
$USERI5
 70
     0
  9
$USERR1
 40
0.0
  9
$USERR2
 40
0.0
  9
$USERR3
 40
0.0
  9
$USERR4
 40
0.0
  9
$USERR5
 40
0.0
  9
$WORLDVIEW
 70
     1
  9
$SHADEDGE
 70
     3
  9
$SHADEDIF
 70
    70
  9
$TILEMODE
 70
     1
  9
$MAXACTVP
 70
    64
  9
$PINSBASE
 10
0.0
 20
0.0
 30
0.0
  9
$PLIMCHECK
 70
     0
  9
$PEXTMIN
 10
1.0000000000E+20
 20
1.0000000000E+20
 30
1.0000000000E+20
  9
$PEXTMAX
 10
-1.0000000000E+20
 20
-1.0000000000E+20
 30
-1.0000000000E+20
  9
$PLIMMIN
 10
0.0
 20
0.0
  9
$PLIMMAX
 10
420.0
 20
297.0
  9
$UNITMODE
 70
     0
  9
$VISRETAIN
 70
     1
  9
$PLINEGEN
 70
     0
  9
$PSLTSCALE
 70
     1
  9
$TREEDEPTH
 70
  3020
  9
$CMLSTYLE
  2
Standard
  9
$CMLJUST
 70
     0
  9
$CMLSCALE
 40
20.0
  9
$PROXYGRAPHICS
 70
     1
  9
$MEASUREMENT
 70
     1
  9
$CELWEIGHT
370
    -1
  9
$ENDCAPS
280
     0
  9
$JOINSTYLE
280
     0
  9
$LWDISPLAY
290
     1
  9
$INSUNITS
 70
     4
  9
$HYPERLINKBASE
  1

  9
$STYLESHEET
  1

  9
$XEDIT
290
     1
  9
$CEPSNTYPE
380
     0
  9
$PSTYLEMODE
290
     1
  9
$FINGERPRINTGUID
  2
{cfde745b-9fa4-4556-af10-d73912e5361b}
  9
$VERSIONGUID
  2
{FAEB1C32-E019-11D5-929B-00C0DF256EC4}
  9
$EXTNAMES
290
     1
  9
$PSVPSCALE
 40
0.0
  9
$OLESTARTUP
290
     0
  0
ENDSEC
  0
SECTION
  2
CLASSES
  0
CLASS
  1
ACDBDICTIONARYWDFLT
  2
AcDbDictionaryWithDefault
  3
ObjectDBX Classes
 90
        0
280
     0
281
     0
  0
CLASS
  1
VISUALSTYLE
  2
AcDbVisualStyle
  3
ObjectDBX Classes
 90
     4095
280
     0
281
     0
  0
CLASS
  1
MATERIAL
  2
AcDbMaterial
  3
ObjectDBX Classes
 90
     1153
280
     0
281
     0
  0
CLASS
  1
SCALE
  2
AcDbScale
  3
ObjectDBX Classes
 90
     1153
280
     0
281
     0
  0
CLASS
  1
TABLESTYLE
  2
AcDbTableStyle
  3
ObjectDBX Classes
 90
     4095
280
     0
281
     0
  0
CLASS
  1
MLEADERSTYLE
  2
AcDbMLeaderStyle
  3
ACDB_MLEADERSTYLE_CLASS
 90
     4095
280
     0
281
     0
  0
CLASS
  1
SUN
  2
AcDbSun
  3
SCENEOE
 90
     1153
280
     0
281
     0
  0
CLASS
  1
ACDBPLACEHOLDER
  2
AcDbPlaceHolder
  3
ObjectDBX Classes
 90
        0
280
     0
281
     0
  0
CLASS
  1
LAYOUT
  2
AcDbLayout
  3
ObjectDBX Classes
 90
        0
280
     0
281
     0
  0
ENDSEC
  0
SECTION
  2
TABLES
  0
TABLE
  2
VPORT
  5
8
330
0
100
AcDbSymbolTable
 70
     1
  0
VPORT
  5
29
330
8
100
AcDbSymbolTableRecord
100
AcDbViewportTableRecord
  2
*Active
 70
     0
 10
0.0
 20
0.0
 11
1.0
 21
1.0
 12
139.7
 22
107.95
 13
0.0
 23
0.0
 14
10.0
 24
10.0
 15
10.0
 25
10.0
 16
0.0
 26
0.0
 36
1.0
 17
0.0
 27
0.0
 37
0.0
 40
215.9
 41
1.2941176471
 42
50.0
 43
0.0
 44
0.0
 50
0.0
 51
0.0
 71
     0
 72
  2000
 73
     1
 74
     3
 75
     0
 76
     0
 77
     0
 78
     0
281
     0
 65
     1
110
0.0
120
0.0
130
0.0
111
1.0
121
0.0
131
0.0
112
0.0
122
1.0
132
0.0
 79
     0
146
0.0
  0
ENDTAB
  0
TABLE
  2
LTYPE
  5
5
330
0
100
AcDbSymbolTable
 70
     6
  0
LTYPE
  5
14
330
5
100
AcDbSymbolTableRecord
100
AcDbLinetypeTableRecord
  2
ByBlock
 70
     0
  3

 72
    65
 73
     0
 40
0.0
  0
LTYPE
  5
15
330
5
100
AcDbSymbolTableRecord
100
AcDbLinetypeTableRecord
  2
ByLayer
 70
     0
  3

 72
    65
 73
     0
 40
0.0
  0
LTYPE
  5
16
330
5
100
AcDbSymbolTableRecord
100
AcDbLinetypeTableRecord
  2
Continuous
 70
     0
  3
Solid line
 72
    65
 73
     0
 40
0.0
  0
LTYPE
  5
6E
330
5
100
AcDbSymbolTableRecord
100
AcDbLinetypeTableRecord
  2
HIDDEN
 70
     0
  3
Hidden __ __ __ __ __ __ __ __ __ __ __ __ __ __
 72
    65
 73
     2
 40
1.905
 49
1.27
 74
     0
 49
-0.635
 74
     0
  0
LTYPE
  5
6F
330
5
100
AcDbSymbolTableRecord
100
AcDbLinetypeTableRecord
  2
PHANTOM
 70
     0
  3
Phantom ______  __  __  ______  __  __  ______
 72
    65
 73
     6
 40
12.7
 49
6.35
 74
     0
 49
-1.27
 74
     0
 49
1.27
 74
     0
 49
-1.27
 74
     0
 49
1.27
 74
     0
 49
-1.27
 74
     0
  0
LTYPE
  5
70
330
5
100
AcDbSymbolTableRecord
100
AcDbLinetypeTableRecord
  2
CENTER
 70
     0
  3
Center ____ _ ____ _ ____ _ ____ _ ____ _ ____
 72
    65
 73
     4
 40
10.16
 49
6.35
 74
     0
 49
-1.27
 74
     0
 49
1.27
 74
     0
 49
-1.27
 74
     0
  0
LTYPE
  5
71
330
5
100
AcDbSymbolTableRecord
100
AcDbLinetypeTableRecord
  2
CENTERX2
 70
     0
  3
Center (2x) ________  __  ________  __  _____
 72
    65
 73
     4
 40
20.32
 49
12.7
 74
     0
 49
-2.54
 74
     0
 49
2.54
 74
     0
 49
-2.54
 74
     0
  0
LTYPE
  5
72
330
5
100
AcDbSymbolTableRecord
100
AcDbLinetypeTableRecord
  2
DOT2
 70
     0
  3
Dot (.5x) ........................................
 72
    65
 73
     2
 40
0.635
 49
0.0
 74
     0
 49
-0.635
 74
     0
  0
ENDTAB
  0
TABLE
  2
LAYER
  5
2
330
0
100
AcDbSymbolTable
 70
    17
  0
LAYER
  5
10
330
2
100
AcDbSymbolTableRecord
100
AcDbLayerTableRecord
  2
0
 70
     0
 62
     7
  6
Continuous
370
    -3
390
F
  0
LAYER
  5
73
330
2
100
AcDbSymbolTableRecord
100
AcDbLayerTableRecord
  2
FORMAT
 70
     0
 62
     7
  6
Continuous
370
    -3
390
F
  0
LAYER
  5
74
330
2
100
AcDbSymbolTableRecord
100
AcDbLayerTableRecord
  2
YARDIMCI_GEOMETRI
 70
     0
 62
    -6
  6
Continuous
290
     0
370
    -3
390
F
  0
LAYER
  5
75
330
2
100
AcDbSymbolTableRecord
100
AcDbLayerTableRecord
  2
SAYFA_CERCEVESI
 70
     0
 62
     7
  6
Continuous
370
    25
390
F
  0
LAYER
  5
76
330
2
100
AcDbSymbolTableRecord
100
AcDbLayerTableRecord
  2
ANTET
 70
     0
 62
     7
  6
Continuous
370
    -3
390
F
  0
LAYER
  5
77
330
2
100
AcDbSymbolTableRecord
100
AcDbLayerTableRecord
  2
OLCU
 70
     0
 62
   150
  6
Continuous
370
    -3
390
F
  0
LAYER
  5
78
330
2
100
AcDbSymbolTableRecord
100
AcDbLayerTableRecord
  2
METIN
 70
     0
 62
    96
  6
Continuous
370
    -3
390
F
  0
LAYER
  5
79
330
2
100
AcDbSymbolTableRecord
100
AcDbLayerTableRecord
  2
BALON
 70
     0
 62
     5
  6
Continuous
370
    -3
390
F
  0
LAYER
  5
7A
330
2
100
AcDbSymbolTableRecord
100
AcDbLayerTableRecord
  2
VURGU
 70
     0
 62
     7
  6
Continuous
370
    -3
390
F
  0
LAYER
  5
7B
330
2
100
AcDbSymbolTableRecord
100
AcDbLayerTableRecord
  2
SILIK
 70
     0
 62
     7
  6
Continuous
370
    -3
390
F
  0
LAYER
  5
7C
330
2
100
AcDbSymbolTableRecord
100
AcDbLayerTableRecord
  2
MODEL
 70
     0
 62
     7
  6
Continuous
370
    -3
390
F
  0
LAYER
  5
7D
330
2
100
AcDbSymbolTableRecord
100
AcDbLayerTableRecord
  2
DETAYLANDıRMA
 70
     0
 62
   190
  6
Continuous
370
    -3
390
F
  0
LAYER
  5
7E
330
2
100
AcDbSymbolTableRecord
100
AcDbLayerTableRecord
  2
TOLERANS
 70
     0
 62
   230
  6
Continuous
370
    -3
390
F
  0
LAYER
  5
7F
330
2
100
AcDbSymbolTableRecord
100
AcDbLayerTableRecord
  2
MERKEZ_CIZGILERI
 70
     0
 62
    30
  6
Continuous
370
    -3
390
F
  0
LAYER
  5
80
330
2
100
AcDbSymbolTableRecord
100
AcDbLayerTableRecord
  2
KESIT-DETAY_CIZGILERI
 70
     0
 62
     7
  6
Continuous
370
    -3
390
F
  0
LAYER
  5
81
330
2
100
AcDbSymbolTableRecord
100
AcDbLayerTableRecord
  2
\U+041E\U+0421\U+0415\U+0412\U+042B\U+0415
 70
     0
 62
     7
  6
Continuous
370
    -3
390
F
  0
LAYER
  5
82
330
2
100
AcDbSymbolTableRecord
100
AcDbLayerTableRecord
  2
\U+0412\U+041E\U+0414\U+042F\U+041D\U+042B\U+0415_\U+0417\U+041D\U+0410\U+041A\U+0418
 70
     0
 62
    11
  6
Continuous
370
    -3
390
F
  0
ENDTAB
  0
TABLE
  2
STYLE
  5
3
330
0
100
AcDbSymbolTable
 70
     1
  0
STYLE
  5
11
330
3
100
AcDbSymbolTableRecord
100
AcDbTextStyleTableRecord
  2
Standard
 70
     0
 40
0.0
 41
1.0
 50
0.0
 71
     0
 42
3.5
  3
txt
  4

  0
ENDTAB
  0
TABLE
  2
VIEW
  5
6
330
0
100
AcDbSymbolTable
 70
     0
  0
ENDTAB
  0
TABLE
  2
UCS
  5
7
330
0
100
AcDbSymbolTable
 70
     0
  0
ENDTAB
  0
TABLE
  2
APPID
  5
9
330
0
100
AcDbSymbolTable
 70
     1
  0
APPID
  5
12
330
9
100
AcDbSymbolTableRecord
100
AcDbRegAppTableRecord
  2
ACAD
 70
     0
  0
ENDTAB
  0
TABLE
  2
DIMSTYLE
  5
A
330
0
100
AcDbSymbolTable
 70
     1
100
AcDbDimStyleTable
  0
DIMSTYLE
105
27
330
A
100
AcDbSymbolTableRecord
100
AcDbDimStyleTableRecord
  2
ISO-25
 70
     0
 41
2.5
 42
0.625
 43
3.75
 44
1.25
 73
     0
 74
     0
 77
     1
 78
     8
140
2.5
141
2.5
143
0.0393700787
147
0.625
171
     3
172
     1
178
     0
271
     2
272
     2
274
     3
278
    44
283
     0
284
     8
340
11
  0
ENDTAB
  0
TABLE
  2
BLOCK_RECORD
  5
1
330
0
100
AcDbSymbolTable
 70
     3
  0
BLOCK_RECORD
  5
1F
330
1
100
AcDbSymbolTableRecord
100
AcDbBlockTableRecord
  2
*Model_Space
340
22
  0
BLOCK_RECORD
  5
1B
330
1
100
AcDbSymbolTableRecord
100
AcDbBlockTableRecord
  2
*Paper_Space
340
1E
  0
BLOCK_RECORD
  5
23
330
1
100
AcDbSymbolTableRecord
100
AcDbBlockTableRecord
  2
*Paper_Space0
340
26
  0
BLOCK_RECORD
  5
88
330
1
100
AcDbSymbolTableRecord
100
AcDbBlockTableRecord
  2
SW_CENTERMARKSYMBOL_0
340
0
102
{BLKREFS
331
93
102
}
  0
BLOCK_RECORD
  5
B2
330
1
100
AcDbSymbolTableRecord
100
AcDbBlockTableRecord
  2
SW_CENTERMARKSYMBOL_1
340
0
102
{BLKREFS
331
BD
102
}
  0
ENDTAB
  0
ENDSEC
  0
SECTION
  2
BLOCKS
  0
BLOCK
  5
20
330
1F
100
AcDbEntity
  8
0
100
AcDbBlockBegin
  2
*Model_Space
 70
     0
 10
0.0
 20
0.0
 30
0.0
  3
*Model_Space
  1

  0
ENDBLK
  5
21
330
1F
100
AcDbEntity
  8
0
100
AcDbBlockEnd
  0
BLOCK
  5
1C
330
1B
100
AcDbEntity
 67
     1
  8
0
100
AcDbBlockBegin
  2
*Paper_Space
 70
     0
 10
0.0
 20
0.0
 30
0.0
  3
*Paper_Space
  1

  0
ENDBLK
  5
1D
330
1B
100
AcDbEntity
 67
     1
  8
0
100
AcDbBlockEnd
  0
BLOCK
  5
24
330
23
100
AcDbEntity
  8
0
100
AcDbBlockBegin
  2
*Paper_Space0
 70
     0
 10
0.0
 20
0.0
 30
0.0
  3
*Paper_Space0
  1

  0
ENDBLK
  5
25
330
23
100
AcDbEntity
  8
0
100
AcDbBlockEnd
  0
BLOCK
  5
89
330
88
100
AcDbEntity
  8
0
100
AcDbBlockBegin
  2
SW_CENTERMARKSYMBOL_0
 70
     0
 10
0.0
 20
0.0
 30
0.0
  3
SW_CENTERMARKSYMBOL_0
  1

  0
LINE
  5
8B
330
88
100
AcDbEntity
  8
FORMAT
 62
     0
100
AcDbLine
 10
0.0
 20
0.0
 30
0.0
 11
0.0
 21
2.5
 31
0.0
  0
LINE
  5
8C
330
88
100
AcDbEntity
  8
FORMAT
 62
     0
100
AcDbLine
 10
0.0
 20
0.0
 30
0.0
 11
-2.5
 21
0.0
 31
0.0
  0
LINE
  5
8D
330
88
100
AcDbEntity
  8
FORMAT
 62
     0
100
AcDbLine
 10
0.0
 20
0.0
 30
0.0
 11
0.0
 21
-2.5
 31
0.0
  0
LINE
  5
8E
330
88
100
AcDbEntity
  8
FORMAT
 62
     0
100
AcDbLine
 10
0.0
 20
0.0
 30
0.0
 11
2.5
 21
0.0
 31
0.0
  0
LINE
  5
8F
330
88
100
AcDbEntity
  8
FORMAT
 62
     0
100
AcDbLine
 10
0.0
 20
5.0
 30
0.0
 11
0.0
 21
57.5
 31
0.0
  0
LINE
  5
90
330
88
100
AcDbEntity
  8
FORMAT
 62
     0
100
AcDbLine
 10
-5.0
 20
0.0
 30
0.0
 11
-57.5
 21
0.0
 31
0.0
  0
LINE
  5
91
330
88
100
AcDbEntity
  8
FORMAT
 62
     0
100
AcDbLine
 10
0.0
 20
-5.0
 30
0.0
 11
0.0
 21
-57.5
 31
0.0
  0
LINE
  5
92
330
88
100
AcDbEntity
  8
FORMAT
 62
     0
100
AcDbLine
 10
5.0
 20
0.0
 30
0.0
 11
57.5
 21
0.0
 31
0.0
  0
ENDBLK
  5
8A
330
88
100
AcDbEntity
  8
0
100
AcDbBlockEnd
  0
BLOCK
  5
B3
330
B2
100
AcDbEntity
  8
0
100
AcDbBlockBegin
  2
SW_CENTERMARKSYMBOL_1
 70
     0
 10
0.0
 20
0.0
 30
0.0
  3
SW_CENTERMARKSYMBOL_1
  1

  0
LINE
  5
B5
330
B2
100
AcDbEntity
  8
FORMAT
 62
     0
100
AcDbLine
 10
0.0
 20
0.0
 30
0.0
 11
0.0
 21
2.5
 31
0.0
  0
LINE
  5
B6
330
B2
100
AcDbEntity
  8
FORMAT
 62
     0
100
AcDbLine
 10
0.0
 20
0.0
 30
0.0
 11
-2.5
 21
0.0
 31
0.0
  0
LINE
  5
B7
330
B2
100
AcDbEntity
  8
FORMAT
 62
     0
100
AcDbLine
 10
0.0
 20
0.0
 30
0.0
 11
0.0
 21
-2.5
 31
0.0
  0
LINE
  5
B8
330
B2
100
AcDbEntity
  8
FORMAT
 62
     0
100
AcDbLine
 10
0.0
 20
0.0
 30
0.0
 11
2.5
 21
0.0
 31
0.0
  0
LINE
  5
B9
330
B2
100
AcDbEntity
  8
FORMAT
 62
     0
100
AcDbLine
 10
0.0
 20
5.0
 30
0.0
 11
0.0
 21
47.5
 31
0.0
  0
LINE
  5
BA
330
B2
100
AcDbEntity
  8
FORMAT
 62
     0
100
AcDbLine
 10
-5.0
 20
0.0
 30
0.0
 11
-47.5
 21
0.0
 31
0.0
  0
LINE
  5
BB
330
B2
100
AcDbEntity
  8
FORMAT
 62
     0
100
AcDbLine
 10
0.0
 20
-5.0
 30
0.0
 11
0.0
 21
-47.5
 31
0.0
  0
LINE
  5
BC
330
B2
100
AcDbEntity
  8
FORMAT
 62
     0
100
AcDbLine
 10
5.0
 20
0.0
 30
0.0
 11
47.5
 21
0.0
 31
0.0
  0
ENDBLK
  5
B4
330
B2
100
AcDbEntity
  8
0
100
AcDbBlockEnd
  0
ENDSEC
  0
SECTION
  2
ENTITIES
  0
LINE
  5
83
330
1F
100
AcDbEntity
  8
0
  6
Continuous
 62
     7
370
    25
100
AcDbLine
 10
150.2017814953
 20
70.0029005303
 30
0.0
 11
275.5275510204
 21
70.0029005303
 31
0.0
  0
LINE
  5
84
330
1F
100
AcDbEntity
  8
0
  6
Continuous
 62
     7
370
    25
100
AcDbLine
 10
275.5275510204
 20
160.0029005303
 30
0.0
 11
150.2350562527
 21
160.0029005303
 31
0.0
  0
CIRCLE
  5
85
330
1F
100
AcDbEntity
  8
0
  6
Continuous
 62
     7
370
    25
100
AcDbCircle
 10
118.5275510204
 20
115.0029005303
 30
0.0
 40
45.00000000000001
  0
CIRCLE
  5
86
330
1F
100
AcDbEntity
  8
0
  6
Continuous
 62
     7
370
    25
100
AcDbCircle
 10
118.5275510204
 20
115.0029005303
 30
0.0
 40
54.99999999999999
  0
LINE
  5
87
330
1F
100
AcDbEntity
  8
0
  6
Continuous
 62
     7
370
    25
100
AcDbLine
 10
275.5275510204
 20
160.0029005303
 30
0.0
 11
275.5275510204
 21
70.0029005303
 31
0.0
  0
INSERT
  5
93
330
1F
100
AcDbEntity
  8
FORMAT
100
AcDbBlockReference
  2
SW_CENTERMARKSYMBOL_0
 10
118.5275510204
 20
115.0029005303
 30
0.0
  0
LINE
  5
94
330
1F
100
AcDbEntity
  8
0
  6
Continuous
 62
     7
370
    25
100
AcDbLine
 10
63.5275510204
 20
-16.5471128797
 30
0.0
 11
63.5275510204
 21
-343.5471128797
 31
0.0
  0
LINE
  5
95
330
1F
100
AcDbEntity
  8
0
  6
Continuous
 62
     7
370
    25
100
AcDbLine
 10
173.5275510204
 20
-135.0533240179
 30
0.0
 11
173.5275510204
 21
-16.5471128797
 31
0.0
  0
LINE
  5
96
330
1F
100
AcDbEntity
  8
0
  6
Continuous
 62
     7
370
    25
100
AcDbLine
 10
173.5275510204
 20
-343.5471128797
 30
0.0
 11
173.5275510204
 21
-225.0471128797
 31
0.0
  0
LINE
  5
97
330
1F
100
AcDbEntity
  8
0
  6
Continuous
 62
     7
370
    25
100
AcDbLine
 10
173.5275510204
 20
-225.0471128797
 30
0.0
 11
275.5275510204
 21
-225.0471128797
 31
0.0
  0
LINE
  5
98
330
1F
100
AcDbEntity
  8
0
  6
Continuous
 62
     7
370
    25
100
AcDbLine
 10
275.5275510204
 20
-135.0471128797
 30
0.0
 11
173.522427714
 21
-135.0471128797
 31
0.0
  0
SPLINE
  5
99
330
1F
100
AcDbEntity
  8
0
  6
Continuous
 62
     7
370
    25
100
AcDbSpline
210
0.0
220
0.0
230
1.0
 70
     8
 71
     3
 72
    40
 73
    36
 74
     0
 42
0.000000001
 43
0.00000001
 40
0.0
 40
0.0
 40
0.0
 40
0.0
 40
0.0010876247531346
 40
0.0234879405847954
 40
0.0624959016144791
 40
0.1025650224720399
 40
0.1431871140551683
 40
0.184666661217328
 40
0.2141235940439043
 40
0.243585072308642
 40
0.2738888743857096
 40
0.3041941154427899
 40
0.3340557727534454
 40
0.3639127155625452
 40
0.3948032428204996
 40
0.4256712417303279
 40
0.4566721248776646
 40
0.4884534167585127
 40
0.5195012137877714
 40
0.5515608553354258
 40
0.5716803473026733
 40
0.5918063989936023
 40
0.6331217288009314
 40
0.663488210797285
 40
0.6938601408133962
 40
0.7250872957494108
 40
0.7563129133066714
 40
0.787015932643381
 40
0.8177135262111364
 40
0.8495978647885902
 40
0.8814723369749238
 40
0.9222095703130717
 40
0.9431490834127695
 40
0.9640870522696028
 40
1.0
 40
1.0
 40
1.0
 40
1.0
 10
173.5224258415672
 20
-135.0533240179228
 30
0.0
 10
173.5239933362111
 20
-135.0514064082259
 30
0.0
 10
173.5578443688921
 20
-135.0099944207776
 30
0.0
 10
173.3948656007692
 20
-135.2093403433676
 30
0.0
 10
172.8339582205825
 20
-135.8958066927202
 30
0.0
 10
171.5297306120558
 20
-137.5067967000524
 30
0.0
 10
169.6907676243662
 20
-139.8159449340093
 30
0.0
 10
167.62480929954
 20
-142.47560035841
 30
0.0
 10
165.551130454614
 20
-145.2301496451903
 30
0.0
 10
163.5914646244163
 20
-147.9219615503941
 30
0.0
 10
161.5344798287762
 20
-150.8689062975291
 30
0.0
 10
159.43810647668
 20
-154.0516387057787
 30
0.0
 10
157.3696852728034
 20
-157.4318314673019
 30
0.0
 10
155.3708125710851
 20
-161.0522651632299
 30
0.0
 10
153.5077851361237
 20
-164.9428895383319
 30
0.0
 10
151.8995702581668
 20
-169.129440653116
 30
0.0
 10
150.6960132033655
 20
-173.5973760206373
 30
0.0
 10
150.081663148423
 20
-178.2659456462117
 30
0.0
 10
150.1745684269155
 20
-183.0473628985228
 30
0.0
 10
150.869020656129
 20
-187.1539581342255
 30
0.0
 10
151.8237387223284
 20
-190.5822487580944
 30
0.0
 10
153.1464934173624
 20
-194.3168334337965
 30
0.0
 10
154.9657689406197
 20
-198.2828378841867
 30
0.0
 10
157.205062612044
 20
-202.3817288101641
 30
0.0
 10
159.3148917029542
 20
-205.8508270925016
 30
0.0
 10
161.4664268864965
 20
-209.1271139028686
 30
0.0
 10
163.5953933196381
 20
-212.179206358948
 30
0.0
 10
165.6282176834059
 20
-214.9692476228098
 30
0.0
 10
167.5471885055001
 20
-217.51328824961
 30
0.0
 10
169.3056436543227
 20
-219.7839973702071
 30
0.0
 10
170.9872250403176
 20
-221.9099904818226
 30
0.0
 10
172.1646339345065
 20
-223.3723693541059
 30
0.0
 10
172.8958577244558
 20
-224.2733390693107
 30
0.0
 10
173.3996354476431
 20
-224.8909495388197
 30
0.0
 10
173.4780293094228
 20
-224.9866552225886
 30
0.0
 10
173.5275510204079
 20
-225.0471128796507
 30
0.0
  0
LINE
  5
9A
330
1F
100
AcDbEntity
  8
0
  6
Continuous
 62
     7
370
    25
100
AcDbLine
 10
173.5275510204
 20
-343.5471128797
 30
0.0
 11
63.5275510204
 21
-343.5471128797
 31
0.0
  0
LINE
  5
9B
330
1F
100
AcDbEntity
  8
0
  6
Continuous
 62
     7
370
    25
100
AcDbLine
 10
173.5275510204
 20
-16.5471128797
 30
0.0
 11
63.5275510204
 21
-16.5471128797
 31
0.0
  0
LINE
  5
9C
330
1F
100
AcDbEntity
  8
0
  6
Continuous
 62
     7
370
    25
100
AcDbLine
 10
275.5275510204
 20
-135.0471128797
 30
0.0
 11
275.5275510204
 21
-225.0471128797
 31
0.0
  0
LINE
  5
9D
330
1F
100
AcDbEntity
  8
0
  6
Continuous
 62
     7
370
    25
100
AcDbLine
 10
173.5275510204
 20
437.5998102958
 30
0.0
 11
173.5275510204
 21
556.0998102958
 31
0.0
  0
LINE
  5
9E
330
1F
100
AcDbEntity
  8
0
  6
Continuous
 62
     7
370
    25
100
AcDbLine
 10
173.5275510204
 20
229.0998102958
 30
0.0
 11
173.5275510204
 21
347.6050703609
 31
0.0
  0
LINE
  5
9F
330
1F
100
AcDbEntity
  8
0
  6
Continuous
 62
     7
370
    25
100
AcDbLine
 10
63.5275510204
 20
556.0998102958
 30
0.0
 11
63.5275510204
 21
229.0998102958
 31
0.0
  0
LINE
  5
A0
330
1F
100
AcDbEntity
  8
0
  6
Continuous
 62
     7
370
    25
100
AcDbLine
 10
173.5232506999
 20
347.5998102958
 30
0.0
 11
275.5275510204
 21
347.5998102958
 31
0.0
  0
LINE
  5
A1
330
1F
100
AcDbEntity
  8
0
  6
Continuous
 62
     7
370
    25
100
AcDbLine
 10
275.5275510204
 20
437.5998102958
 30
0.0
 11
173.5275510204
 21
437.5998102958
 31
0.0
  0
SPLINE
  5
A2
330
1F
100
AcDbEntity
  8
0
  6
Continuous
 62
     7
370
    25
100
AcDbSpline
210
0.0
220
0.0
230
1.0
 70
     8
 71
     3
 72
    41
 73
    37
 74
     0
 42
0.000000001
 43
0.00000001
 40
0.0
 40
0.0
 40
0.0
 40
0.0
 40
0.0209997682521192
 40
0.0421728203114245
 40
0.0638791500704539
 40
0.0857611978865513
 40
0.1278544215515527
 40
0.1709815253496139
 40
0.1994849800724106
 40
0.2282057483443487
 40
0.2575426565695904
 40
0.2870681818641894
 40
0.3160873901331899
 40
0.3452815682260292
 40
0.3750834962159509
 40
0.4051492120259297
 40
0.437707684520838
 40
0.4709904884841301
 40
0.5036176736535964
 40
0.5374556406048355
 40
0.5742348842790406
 40
0.6120593442119469
 40
0.6404919433400659
 40
0.6691410073357923
 40
0.6983705220880667
 40
0.7277774156032932
 40
0.7572720415639997
 40
0.7869612771232052
 40
0.8173282156479185
 40
0.8479677095469047
 40
0.8911131419886412
 40
0.9131961358709797
 40
0.9354452960330513
 40
0.9569776687948677
 40
0.9786880306291199
 40
1.0
 40
1.0
 40
1.0
 40
1.0
 10
173.5275510204079
 20
437.5998102957789
 30
0.0
 10
173.5100423974899
 20
437.5784196739159
 30
0.0
 10
173.4748806757337
 20
437.5354619211757
 30
0.0
 10
173.1892920916008
 20
437.1859990507567
 30
0.0
 10
172.7309350860882
 20
436.6231979890328
 30
0.0
 10
171.8890336963164
 20
435.5839878139181
 30
0.0
 10
170.4449913025757
 20
433.7844397095393
 30
0.0
 10
168.4638854938789
 20
431.2599536998888
 30
0.0
 10
166.4723571118396
 20
428.6484472164379
 30
0.0
 10
164.6239404951952
 20
426.154948556042
 30
0.0
 10
162.6593913851788
 20
423.4061281734142
 30
0.0
 10
160.63368141086
 20
420.4331401700921
 30
0.0
 10
158.6016941079911
 20
417.259988527157
 30
0.0
 10
156.6034512689978
 20
413.8737186177785
 30
0.0
 10
154.684891666898
 20
410.2341170017885
 30
0.0
 10
152.8889616318754
 20
406.2239432309022
 30
0.0
 10
151.3598350055878
 20
401.8031315961281
 30
0.0
 10
150.3314405276082
 20
397.0070948277352
 30
0.0
 10
150.0217492259372
 20
391.9906814173488
 30
0.0
 10
150.5360615129733
 20
386.8203071562285
 30
0.0
 10
151.8832434635889
 20
381.6156217397395
 30
0.0
 10
153.7226119108136
 20
376.9942544409823
 30
0.0
 10
155.6873788217903
 20
373.0094436521132
 30
0.0
 10
157.6058430926491
 20
369.588167099513
 30
0.0
 10
159.6140718509981
 20
366.3302905212766
 30
0.0
 10
161.6562166728044
 20
363.2455645773791
 30
0.0
 10
163.6759668354028
 20
360.3563562053202
 30
0.0
 10
165.640074708156
 20
357.662853848445
 30
0.0
 10
167.5060849176813
 20
355.1877158061335
 30
0.0
 10
169.4523290255141
 20
352.6729867520029
 30
0.0
 10
170.9673603433999
 20
350.7637754233976
 30
0.0
 10
172.0549091483843
 20
349.4109550630802
 30
0.0
 10
172.7093784779232
 20
348.6029586959796
 30
0.0
 10
173.1787768974248
 20
348.0264945392886
 30
0.0
 10
173.4742522477555
 20
347.6649251800786
 30
0.0
 10
173.507017925602
 20
347.624898416261
 30
0.0
 10
173.5232490572754
 20
347.6050703609093
 30
0.0
  0
LINE
  5
A3
330
1F
100
AcDbEntity
  8
0
  6
Continuous
 62
     7
370
    25
100
AcDbLine
 10
63.5275510204
 20
556.0998102958
 30
0.0
 11
173.5275510204
 21
556.0998102958
 31
0.0
  0
LINE
  5
A4
330
1F
100
AcDbEntity
  8
0
  6
Continuous
 62
     7
370
    25
100
AcDbLine
 10
63.5275510204
 20
229.0998102958
 30
0.0
 11
173.5275510204
 21
229.0998102958
 31
0.0
  0
LINE
  5
A5
330
1F
100
AcDbEntity
  8
0
  6
Continuous
 62
     7
370
    25
100
AcDbLine
 10
275.5275510204
 20
437.5998102958
 30
0.0
 11
275.5275510204
 21
347.5998102958
 31
0.0
  0
LINE
  5
A6
330
1F
100
AcDbEntity
  8
0
  6
Continuous
 62
     7
370
    25
100
AcDbLine
 10
348.2143379197
 20
60.0029005303
 30
0.0
 11
675.2143379197
 21
60.0029005303
 31
0.0
  0
LINE
  5
A7
330
1F
100
AcDbEntity
  8
0
  6
Continuous
 62
     7
370
    25
100
AcDbLine
 10
675.2143379197
 20
170.0029005303
 30
0.0
 11
348.2143379197
 21
170.0029005303
 31
0.0
  0
LINE
  5
A8
330
1F
100
AcDbEntity
  8
0
  6
Continuous
 62
     7
370
    25
100
AcDbLine
 10
675.2143379197
 20
170.0029005303
 30
0.0
 11
675.2143379197
 21
60.0029005303
 31
0.0
  0
LINE
  5
A9
330
1F
100
AcDbEntity
  8
0
  6
Continuous
 62
     7
370
    25
100
AcDbLine
 10
348.2143379197
 20
170.0029005303
 30
0.0
 11
348.2143379197
 21
60.0029005303
 31
0.0
  0
LINE
  5
AA
330
1F
100
AcDbEntity
  8
0
  6
Continuous
 62
     7
370
    25
100
AcDbLine
 10
-28.9494030339
 20
170.0029005303
 30
0.0
 11
-355.9494030339
 21
170.0029005303
 31
0.0
  0
LINE
  5
AB
330
1F
100
AcDbEntity
  8
0
  6
Continuous
 62
     7
370
    25
100
AcDbLine
 10
-355.9494030339
 20
60.0029005303
 30
0.0
 11
-28.9494030339
 21
60.0029005303
 31
0.0
  0
CIRCLE
  5
AC
330
1F
100
AcDbEntity
  8
0
  6
Continuous
 62
     7
370
    25
100
AcDbCircle
 10
-192.4494030339
 20
115.0029005303
 30
0.0
 40
36.80000000000001
  0
CIRCLE
  5
AD
330
1F
100
AcDbEntity
  8
0
  6
Continuous
 62
     7
370
    25
100
AcDbCircle
 10
-192.4494030339
 20
115.0029005303
 30
0.0
 40
45.0
  0
LINE
  5
AE
330
1F
100
AcDbEntity
  8
0
  6
Continuous
 62
     7
370
    25
100
AcDbLine
 10
-355.9494030339
 20
115.0029005303
 30
0.0
 11
-355.9494030339
 21
170.0029005303
 31
0.0
  0
LINE
  5
AF
330
1F
100
AcDbEntity
  8
0
  6
Continuous
 62
     7
370
    25
100
AcDbLine
 10
-355.9494030339
 20
60.0029005303
 30
0.0
 11
-355.9494030339
 21
115.0029005303
 31
0.0
  0
LINE
  5
B0
330
1F
100
AcDbEntity
  8
0
  6
Continuous
 62
     7
370
    25
100
AcDbLine
 10
-28.9494030339
 20
115.0029005303
 30
0.0
 11
-28.9494030339
 21
170.0029005303
 31
0.0
  0
LINE
  5
B1
330
1F
100
AcDbEntity
  8
0
  6
Continuous
 62
     7
370
    25
100
AcDbLine
 10
-28.9494030339
 20
60.0029005303
 30
0.0
 11
-28.9494030339
 21
115.0029005303
 31
0.0
  0
INSERT
  5
BD
330
1F
100
AcDbEntity
  8
FORMAT
100
AcDbBlockReference
  2
SW_CENTERMARKSYMBOL_1
 10
-192.4494030339
 20
115.0029005303
 30
0.0
  0
LINE
  5
BE
330
1F
100
AcDbEntity
  8
0
  6
Continuous
 62
     7
370
    25
100
AcDbLine
 10
529.8788774637
 20
-140.7396407221
 30
0.0
 11
431.7638711475
 21
-84.0990532046
 31
0.0
  0
LINE
  5
BF
330
1F
100
AcDbEntity
  8
0
  6
Continuous
 62
     7
370
    25
100
AcDbLine
 10
662.9877885955
 20
-217.5817794876
 30
0.0
 11
619.8861921209
 21
-192.6997574715
 31
0.0
  0
LINE
  5
C0
330
1F
100
AcDbEntity
  8
0
  6
Continuous
 62
     7
370
    25
100
AcDbLine
 10
376.7683408525
 20
-179.3644280665
 30
0.0
 11
607.9922583005
 21
-312.8471543495
 31
0.0
  0
LINE
  5
C1
330
1F
100
AcDbEntity
  8
0
  6
Continuous
 62
     7
370
    25
100
AcDbLine
 10
574.0933051423
 20
-219.1354284252
 30
0.0
 11
653.3920008546
 21
-173.3572658061
 31
0.0
  0
LINE
  5
C2
330
1F
100
AcDbEntity
  8
0
  6
Continuous
 62
     7
370
    25
100
AcDbLine
 10
608.395657886
 20
-95.4128681918
 30
0.0
 11
529.0975416311
 21
-141.1906962973
 31
0.0
  0
SPLINE
  5
C3
330
1F
100
AcDbEntity
  8
0
  6
Continuous
 62
     7
370
    25
100
AcDbSpline
210
0.0
220
0.0
230
1.0
 70
     8
 71
     3
 72
    32
 73
    28
 74
     0
 42
0.000000001
 43
0.00000001
 40
0.0
 40
0.0
 40
0.0
 40
0.0
 40
0.0278802059595635
 40
0.0559904710405328
 40
0.0848087387967434
 40
0.1138602974904089
 40
0.1697450925601725
 40
0.2270025118751729
 40
0.2648449384529267
 40
0.3029758799530894
 40
0.3419248356613988
 40
0.3811242075970701
 40
0.4196513710214357
 40
0.4584108319962681
 40
0.4979771681755852
 40
0.5378937205413155
 40
0.5811197651332705
 40
0.6253074636958351
 40
0.6686247342239869
 40
0.7135494913225917
 40
0.7623792153634907
 40
0.8125966139832238
 40
0.8503449695907991
 40
0.8883807133742555
 40
0.9271870888355311
 40
0.9662289600596448
 40
1.0
 40
1.0
 40
1.0
 40
1.0
 10
526.9491325358664
 20
-157.6526981858996
 30
0.0
 10
526.9518775236448
 20
-158.5284412124615
 30
0.0
 10
526.9573901500199
 20
-160.2871536351309
 30
0.0
 10
527.0025560909963
 20
-163.1404516676953
 30
0.0
 10
527.0764091913979
 20
-166.1440127022019
 30
0.0
 10
527.2159275715017
 20
-170.2492885647189
 30
0.0
 10
527.4673080702441
 20
-175.5538269513569
 30
0.0
 10
527.8515358951023
 20
-181.2612121438959
 30
0.0
 10
528.2899266147944
 20
-186.2578676361842
 30
0.0
 10
528.7460685023634
 20
-190.5123205957976
 30
0.0
 10
529.3006320374758
 20
-194.7316927208434
 30
0.0
 10
529.9704587556065
 20
-198.8548113809109
 30
0.0
 10
530.7773837983508
 20
-202.8387376808799
 30
0.0
 10
531.7588671544178
 20
-206.6794805700676
 30
0.0
 10
532.9758276250122
 20
-210.3760340316635
 30
0.0
 10
534.5415344174403
 20
-213.9665387134557
 30
0.0
 10
536.5862643673577
 20
-217.3523830789258
 30
0.0
 10
539.2503902749282
 20
-220.3332599149297
 30
0.0
 10
542.5785435537823
 20
-222.683148040517
 30
0.0
 10
546.5982312574222
 20
-224.2907400544418
 30
0.0
 10
551.2310710540568
 20
-225.0633439360381
 30
0.0
 10
555.7996084421966
 20
-225.0089359409998
 30
0.0
 10
560.0062856694473
 20
-224.4309899035385
 30
0.0
 10
563.7831464844896
 20
-223.5455122006935
 30
0.0
 10
567.5026572479786
 20
-222.3105693872988
 30
0.0
 10
570.9760627605651
 20
-220.8502835269339
 30
0.0
 10
573.0987925078844
 20
-219.6664522445068
 30
0.0
 10
574.0833265682979
 20
-219.1173846013908
 30
0.0
  0
SPLINE
  5
C4
330
1F
100
AcDbEntity
  8
0
  6
Continuous
 62
     7
370
    25
100
AcDbSpline
210
0.0
220
0.0
230
1.0
 70
     8
 71
     3
 72
    16
 73
    12
 74
     0
 42
0.000000001
 43
0.00000001
 40
0.0
 40
0.0
 40
0.0
 40
0.0
 40
0.0124657810344688
 40
0.1363872527257246
 40
0.2612894778550433
 40
0.3897419755557066
 40
0.5196710947312381
 40
0.6847569259465901
 40
0.7692950136200478
 40
0.8544643722303492
 40
1.0
 40
1.0
 40
1.0
 40
1.0
 10
529.1058876956971
 20
-141.2059051461501
 30
0.0
 10
529.0839832611886
 20
-141.2119983517259
 30
0.0
 10
528.8443283501263
 20
-141.2786636947539
 30
0.0
 10
528.4986364786603
 20
-141.7565601474911
 30
0.0
 10
528.04661170801
 20
-142.7036606998683
 30
0.0
 10
527.6867045657643
 20
-144.1493338317499
 30
0.0
 10
527.3712851575739
 20
-146.2612753580184
 30
0.0
 10
527.1698407840157
 20
-148.7166164209309
 30
0.0
 10
527.0496699784862
 20
-151.2972750239161
 30
0.0
 10
526.9691395782712
 20
-153.9644241257602
 30
0.0
 10
526.9568715660687
 20
-156.2260173318346
 30
0.0
 10
526.9491325358664
 20
-157.6526981858996
 30
0.0
  0
LWPOLYLINE
  5
C5
330
1F
100
AcDbEntity
  8
0
  6
Continuous
 62
     7
370
    25
100
AcDbPolyline
 90
       89
 70
   128
 43
0.0
 10
443.1569789653
 20
-109.2805175604
 10
443.0578894782
 20
-106.1338962024
 10
442.7611259545
 20
-103.117715592
 10
442.2682006329
 20
-100.2473454944
 10
441.5816253479
 20
-97.5374126575
 10
440.7048987298
 20
-95.001726278
 10
439.6424883765
 20
-92.6532076323
 10
438.3998080875
 20
-90.5038242333
 10
436.9831902769
 20
-88.5645288459
 10
435.3998537042
 20
-86.845203675
 10
433.6578666898
 20
-85.3546100075
 10
431.766106
 20
-84.1003435672
 10
429.7342116138
 20
-83.0887958082
 10
427.5725375992
 20
-82.3251213461
 10
425.2920993515
 20
-81.8132116908
 10
422.9045174613
 20
-81.5556754168
 10
420.4219584985
 20
-81.5538248696
 10
417.8570730147
 20
-81.8076694795
 10
415.2229310783
 20
-82.3159157123
 10
412.5329556728
 20
-83.0759736618
 10
409.8008542964
 20
-84.0839702469
 10
407.0405491112
 20
-85.3347689481
 10
404.266106
 20
-86.8219959818
 10
401.4916628888
 20
-88.5380727801
 10
398.7313577036
 20
-90.4742546089
 10
395.9992563272
 20
-92.6206751294
 10
393.3092809217
 20
-94.9663966746
 10
390.6751389853
 20
-97.4994659854
 10
388.1102535015
 20
-100.206975121
 10
385.6276945387
 20
-103.0751272355
 10
383.2401126485
 20
-106.0893068833
 10
380.9596744008
 20
-109.2341544956
 10
378.7980003862
 20
-112.4936446501
 10
376.766106
 20
-115.8511677319
 10
374.8743453102
 20
-119.2896145731
 10
373.1323582958
 20
-122.7914636367
 10
371.5490217231
 20
-126.3388703026
 10
370.1324039125
 20
-129.9137577995
 10
368.8897236235
 20
-133.4979093203
 10
367.8273132702
 20
-137.0730608503
 10
366.9505866521
 20
-140.6209942368
 10
366.2640113671
 20
-144.1236300245
 10
365.7710860455
 20
-147.5631195845
 10
365.4743225218
 20
-150.9219360661
 10
365.3752330347
 20
-154.1829637107
 10
365.4743225218
 20
-157.3295850687
 10
365.7710860455
 20
-160.345765679
 10
366.2640113671
 20
-163.2161357767
 10
366.9505866521
 20
-165.9260686135
 10
367.8273132702
 20
-168.4617549931
 10
368.8897236235
 20
-170.8102736387
 10
370.1324039125
 20
-172.9596570378
 10
371.5490217231
 20
-174.8989524252
 10
373.1323582958
 20
-176.6182775961
 10
374.8743453102
 20
-178.1088712635
 10
376.766106
 20
-179.3631377039
 10
378.7980003862
 20
-180.3746854629
 10
380.9596744008
 20
-181.138359925
 10
383.2401126485
 20
-181.6502695802
 10
385.6276945387
 20
-181.9078058543
 10
388.1102535015
 20
-181.9096564014
 10
390.6751389853
 20
-181.6558117916
 10
393.3092809217
 20
-181.1475655588
 10
395.9992563272
 20
-180.3875076093
 10
398.7313577036
 20
-179.3795110241
 10
401.4916628888
 20
-178.128712323
 10
404.266106
 20
-176.6414852892
 10
407.0405491112
 20
-174.925408491
 10
409.8008542964
 20
-172.9892266622
 10
412.5329556728
 20
-170.8428061417
 10
415.2229310783
 20
-168.4970845964
 10
417.8570730147
 20
-165.9640152857
 10
420.4219584985
 20
-163.2565061501
 10
422.9045174613
 20
-160.3883540355
 10
425.2920993515
 20
-157.3741743878
 10
427.5725375992
 20
-154.2293267754
 10
429.7342116138
 20
-150.969836621
 10
431.766106
 20
-147.6123135392
 10
433.6578666898
 20
-144.173866698
 10
435.3998537042
 20
-140.6720176344
 10
436.9831902769
 20
-137.1246109685
 10
438.3998080875
 20
-133.5497234716
 10
439.6424883765
 20
-129.9655719508
 10
440.7048987298
 20
-126.3904204208
 10
441.5816253479
 20
-122.8424870343
 10
442.2682006329
 20
-119.3398512465
 10
442.7611259545
 20
-115.9003616866
 10
443.0578894782
 20
-112.5415452049
 10
443.1569789653
 20
-109.2805175604
  0
LWPOLYLINE
  5
C6
330
1F
100
AcDbEntity
  8
0
  6
Continuous
 62
     7
370
    25
100
AcDbPolyline
 90
       13
 70
   128
 43
0.0
 10
674.3808964133
 20
-242.7632438434
 10
674.2818069262
 20
-239.6166224854
 10
673.9850434025
 20
-236.600441875
 10
673.4921180809
 20
-233.7300717774
 10
672.8055427959
 20
-231.0201389405
 10
671.9288161778
 20
-228.484452561
 10
670.8664058245
 20
-226.1359339153
 10
669.6237255355
 20
-223.9865505163
 10
668.2071077249
 20
-222.0472551289
 10
666.6237711522
 20
-220.327929958
 10
664.8817841378
 20
-218.8373362906
 10
662.990023448
 20
-217.5830698502
 10
662.9877885955
 20
-217.5817794876
  0
LWPOLYLINE
  5
C7
330
1F
100
AcDbEntity
  8
0
  6
Continuous
 62
     7
370
    25
100
AcDbPolyline
 90
       34
 70
   128
 43
0.0
 10
607.9922583005
 20
-312.8471543495
 10
610.0219178342
 20
-313.8574117459
 10
612.1835918488
 20
-314.621086208
 10
614.4640300965
 20
-315.1329958632
 10
616.8516119867
 20
-315.3905321373
 10
619.3341709495
 20
-315.3923826844
 10
621.8990564333
 20
-315.1385380746
 10
624.5331983697
 20
-314.6302918418
 10
627.2231737752
 20
-313.8702338923
 10
629.9552751516
 20
-312.8622373072
 10
632.7155803368
 20
-311.611438606
 10
635.490023448
 20
-310.1242115723
 10
638.2644665592
 20
-308.408134774
 10
641.0247717444
 20
-306.4719529452
 10
643.7568731208
 20
-304.3255324247
 10
646.4468485263
 20
-301.9798108794
 10
649.0809904627
 20
-299.4467415687
 10
651.6458759465
 20
-296.7392324331
 10
654.1284349093
 20
-293.8710803186
 10
656.5160167995
 20
-290.8569006708
 10
658.7964550472
 20
-287.7120530584
 10
660.9581290618
 20
-284.452562904
 10
662.990023448
 20
-281.0950398222
 10
664.8817841378
 20
-277.656592981
 10
666.6237711522
 20
-274.1547439174
 10
668.2071077249
 20
-270.6073372515
 10
669.6237255355
 20
-267.0324497546
 10
670.8664058245
 20
-263.4482982338
 10
671.9288161778
 20
-259.8731467038
 10
672.8055427959
 20
-256.3252133173
 10
673.4921180809
 20
-252.8225775295
 10
673.9850434025
 20
-249.3830879696
 10
674.2818069262
 20
-246.024271488
 10
674.3808964133
 20
-242.7632438434
  0
LWPOLYLINE
  5
C8
330
1F
100
AcDbEntity
  8
0
  6
Continuous
 62
     7
370
    25
100
AcDbPolyline
 90
       81
 70
   128
 43
0.0
 10
436.0859111534
 20
-113.3625581195
 10
435.9878213134
 20
-110.5362567612
 10
435.69415655
 20
-107.8406326091
 10
435.2067274041
 20
-105.2923050826
 10
434.5285390384
 20
-102.9069854684
 10
433.6637727097
 20
-100.6993800549
 10
432.6177599901
 20
-98.6830994637
 10
431.3969498957
 20
-96.8705747351
 10
430.0088691268
 20
-95.2729806868
 10
428.4620756629
 20
-93.9001670174
 10
426.766106
 20
-92.7605975796
 10
424.9314163551
 20
-91.861298198
 10
422.9693182
 20
-91.2078133522
 10
420.8919085222
 20
-90.8041719937
 10
418.7119952432
 20
-90.6528627057
 10
416.4430182533
 20
-90.7548183603
 10
414.0989665501
 20
-91.1094103669
 10
411.6942919919
 20
-91.7144525479
 10
409.2438201969
 20
-92.566214617
 10
406.7626591386
 20
-93.6594451779
 10
404.266106
 20
-94.9874041007
 10
401.7695528614
 20
-96.5419040769
 10
399.2883918031
 20
-98.3133610973
 10
396.8379200081
 20
-100.2908535402
 10
394.4332454499
 20
-102.4621895073
 10
392.0891937467
 20
-104.8139819902
 10
389.8202167568
 20
-107.3317314062
 10
387.6403034778
 20
-109.999914993
 10
385.5628938
 20
-112.8020825114
 10
383.6007956449
 20
-115.7209576669
 10
381.766106
 20
-118.7385446235
 10
380.0701363371
 20
-121.8362389541
 10
378.5233428732
 20
-124.9949423433
 10
377.1352621043
 20
-128.1951803341
 10
375.9144520099
 20
-131.4172223952
 10
374.8684392903
 20
-134.6412035659
 10
374.0036729616
 20
-137.8472469301
 10
373.3254845959
 20
-141.0155861644
 10
372.83805545
 20
-144.1266874038
 10
372.5443906866
 20
-147.1613696746
 10
372.4463008466
 20
-150.1009231515
 10
372.5443906866
 20
-152.9272245099
 10
372.83805545
 20
-155.6228486619
 10
373.3254845959
 20
-158.1711761884
 10
374.0036729616
 20
-160.5564958027
 10
374.8684392903
 20
-162.7641012162
 10
375.9144520099
 20
-164.7803818074
 10
377.1352621043
 20
-166.5929065359
 10
378.5233428732
 20
-168.1905005842
 10
380.0701363371
 20
-169.5633142537
 10
381.766106
 20
-170.7028836915
 10
383.6007956449
 20
-171.6021830731
 10
385.5628938
 20
-172.2556679188
 10
387.6403034778
 20
-172.6593092773
 10
389.8202167568
 20
-172.8106185653
 10
392.0891937467
 20
-172.7086629108
 10
394.4332454499
 20
-172.3540709042
 10
396.8379200081
 20
-171.7490287232
 10
399.2883918031
 20
-170.897266654
 10
401.7695528614
 20
-169.8040360931
 10
404.266106
 20
-168.4760771704
 10
406.7626591386
 20
-166.9215771942
 10
409.2438201969
 20
-165.1501201738
 10
411.6942919919
 20
-163.1726277308
 10
414.0989665501
 20
-161.0012917637
 10
416.4430182533
 20
-158.6494992808
 10
418.7119952432
 20
-156.1317498648
 10
420.8919085222
 20
-153.4635662781
 10
422.9693182
 20
-150.6613987597
 10
424.9314163551
 20
-147.7425236042
 10
426.766106
 20
-144.7249366476
 10
428.4620756629
 20
-141.6272423169
 10
430.0088691268
 20
-138.4685389278
 10
431.3969498957
 20
-135.2683009369
 10
432.6177599901
 20
-132.0462588758
 10
433.6637727097
 20
-128.8222777052
 10
434.5285390384
 20
-125.616234341
 10
435.2067274041
 20
-122.4478951067
 10
435.69415655
 20
-119.3367938673
 10
435.9878213134
 20
-116.3021115965
 10
436.0859111534
 20
-113.3625581195
  0
LWPOLYLINE
  5
C9
330
1F
100
AcDbEntity
  8
0
  6
Continuous
 62
     7
370
    25
100
AcDbPolyline
 90
       73
 70
   128
 43
0.0
 10
656.915358918
 20
-149.4069762565
 10
656.8163391419
 20
-146.7308964258
 10
656.5200334141
 20
-143.9608573786
 10
656.0286967999
 20
-141.1179407845
 10
655.3460686678
 20
-138.2237829555
 10
654.4773442299
 20
-135.3004101802
 10
653.4291350039
 20
-132.3700710906
 10
652.2094184948
 20
-129.4550673366
 10
650.8274774817
 20
-126.5775838568
 10
649.2938293703
 20
-123.759520038
 10
647.6201461486
 20
-121.0223230474
 10
645.8191655566
 20
-118.386824607
 10
643.9045941441
 20
-115.8730824512
 10
641.8910029556
 20
-113.5002276756
 10
639.7937166357
 20
-111.2863191379
 10
637.6286967999
 20
-109.2482060188
 10
635.4124205563
 20
-107.4013995898
 10
633.1617551054
 20
-105.759955163
 10
630.8938293703
 20
-104.3363651216
 10
628.6259036351
 20
-103.1414638453
 10
626.3752381842
 20
-102.1843452545
 10
624.1589619407
 20
-101.4722935995
 10
621.9939421048
 20
-101.0107280233
 10
619.896655785
 20
-100.8031613187
 10
617.8830645965
 20
-100.8511731936
 10
615.9684931839
 20
-101.1543982487
 10
614.167512592
 20
-101.7105287583
 10
612.4938293703
 20
-102.5153322332
 10
610.9601812588
 20
-103.5626836332
 10
609.5782402458
 20
-104.8446119817
 10
608.3585237367
 20
-106.3513610299
 10
607.3103145106
 20
-108.0714635077
 10
606.4415900728
 20
-109.9918283967
 10
605.7589619407
 20
-112.0978405604
 10
605.2676253265
 20
-114.3734719748
 10
604.9713195987
 20
-116.8014037107
 10
604.8722998226
 20
-119.3631577414
 10
604.9713195987
 20
-122.0392375721
 10
605.2676253265
 20
-124.8092766194
 10
605.7589619407
 20
-127.6521932134
 10
606.4415900728
 20
-130.5463510424
 10
607.3103145106
 20
-133.4697238177
 10
608.3585237367
 20
-136.4000629073
 10
609.5782402458
 20
-139.3150666613
 10
610.9601812588
 20
-142.1925501411
 10
612.4938293703
 20
-145.0106139599
 10
614.167512592
 20
-147.7478109505
 10
615.9684931839
 20
-150.3833093909
 10
617.8830645965
 20
-152.8970515468
 10
619.896655785
 20
-155.2699063223
 10
621.9939421048
 20
-157.48381486
 10
624.1589619407
 20
-159.5219279791
 10
626.3752381842
 20
-161.3687344081
 10
628.6259036351
 20
-163.0101788349
 10
630.8938293703
 20
-164.4337688763
 10
633.1617551054
 20
-165.6286701526
 10
635.4124205563
 20
-166.5857887434
 10
637.6286967999
 20
-167.2978403984
 10
639.7937166357
 20
-167.7594059746
 10
641.8910029556
 20
-167.9669726792
 10
643.9045941441
 20
-167.9189608043
 10
645.8191655566
 20
-167.6157357492
 10
647.6201461486
 20
-167.0596052397
 10
649.2938293703
 20
-166.2548017647
 10
650.8274774817
 20
-165.2074503647
 10
652.2094184948
 20
-163.9255220162
 10
653.4291350039
 20
-162.418772968
 10
654.4773442299
 20
-160.6986704902
 10
655.3460686678
 20
-158.7783056012
 10
656.0286967999
 20
-156.6722934375
 10
656.5200334141
 20
-154.3966620231
 10
656.8163391419
 20
-151.9687302873
 10
656.915358918
 20
-149.4069762565
  0
LWPOLYLINE
  5
CA
330
1F
100
AcDbEntity
  8
0
  6
Continuous
 62
     7
370
    25
100
AcDbPolyline
 90
       81
 70
   128
 43
0.0
 10
662.7136345237
 20
-152.754249515
 10
662.6155446837
 20
-149.814696038
 10
662.3218799203
 20
-146.7800137672
 10
661.8344507744
 20
-143.6689125278
 10
661.1562624087
 20
-140.5005732935
 10
660.29149608
 20
-137.2945299293
 10
659.2454833604
 20
-134.0705487587
 10
658.024673266
 20
-130.8485066976
 10
656.6365924971
 20
-127.6482687067
 10
655.0897990332
 20
-124.4895653176
 10
653.3938293703
 20
-121.3918709869
 10
651.5591397254
 20
-118.3742840303
 10
649.5970415703
 20
-115.4554088748
 10
647.5196318925
 20
-112.6532413564
 10
645.3397186135
 20
-109.9850577697
 10
643.0707416236
 20
-107.4673083537
 10
640.7266899204
 20
-105.1155158708
 10
638.3220153621
 20
-102.9441799037
 10
635.8715435671
 20
-100.9666874607
 10
633.3903825089
 20
-99.1952304403
 10
630.8938293703
 20
-97.6407304641
 10
628.3972762317
 20
-96.3127715414
 10
625.9161151734
 20
-95.2195409804
 10
623.4656433784
 20
-94.3677789113
 10
621.0609688202
 20
-93.7627367303
 10
618.716917117
 20
-93.4081447237
 10
616.4479401271
 20
-93.3061890692
 10
614.2680268481
 20
-93.4574983572
 10
612.1906171703
 20
-93.8611397156
 10
610.2285190152
 20
-94.5146245614
 10
608.3938293703
 20
-95.413923943
 10
606.6978597074
 20
-96.5534933808
 10
605.1510662435
 20
-97.9263070503
 10
603.7629854746
 20
-99.5239010985
 10
602.5421753802
 20
-101.3364258271
 10
601.4961626606
 20
-103.3527064183
 10
600.6313963319
 20
-105.5603118318
 10
599.9532079662
 20
-107.9456314461
 10
599.4657788203
 20
-110.4939589725
 10
599.1721140569
 20
-113.1895831246
 10
599.0740242169
 20
-116.0158844829
 10
599.1721140569
 20
-118.9554379599
 10
599.4657788203
 20
-121.9901202307
 10
599.9532079662
 20
-125.1012214701
 10
600.6313963319
 20
-128.2695607044
 10
601.4961626606
 20
-131.4756040686
 10
602.5421753802
 20
-134.6995852392
 10
603.7629854746
 20
-137.9216273004
 10
605.1510662435
 20
-141.1218652912
 10
606.6978597074
 20
-144.2805686803
 10
608.3938293703
 20
-147.378263011
 10
610.2285190152
 20
-150.3958499676
 10
612.1906171703
 20
-153.3147251231
 10
614.2680268481
 20
-156.1168926415
 10
616.4479401271
 20
-158.7850762282
 10
618.716917117
 20
-161.3028256442
 10
621.0609688202
 20
-163.6546181271
 10
623.4656433784
 20
-165.8259540942
 10
625.9161151734
 20
-167.8034465372
 10
628.3972762317
 20
-169.5749035576
 10
630.8938293703
 20
-171.1294035338
 10
633.3903825089
 20
-172.4573624565
 10
635.8715435671
 20
-173.5505930175
 10
638.3220153621
 20
-174.4023550866
 10
640.7266899204
 20
-175.0073972676
 10
643.0707416236
 20
-175.3619892742
 10
645.3397186135
 20
-175.4639449287
 10
647.5196318925
 20
-175.3126356407
 10
649.5970415703
 20
-174.9089942823
 10
651.5591397254
 20
-174.2555094365
 10
653.3938293703
 20
-173.3562100549
 10
655.0897990332
 20
-172.2166406171
 10
656.6365924971
 20
-170.8438269476
 10
658.024673266
 20
-169.2462328994
 10
659.2454833604
 20
-167.4337081708
 10
660.29149608
 20
-165.4174275796
 10
661.1562624087
 20
-163.2098221661
 10
661.8344507744
 20
-160.8245025518
 10
662.3218799203
 20
-158.2761750254
 10
662.6155446837
 20
-155.5805508733
 10
662.7136345237
 20
-152.754249515
  0
ENDSEC
  0
SECTION
  2
OBJECTS
  0
DICTIONARY
  5
C
330
0
100
AcDbDictionary
281
     1
  3
ACAD_GROUP
350
D
  3
ACAD_LAYOUT
350
1A
  3
ACAD_MLINESTYLE
350
17
  3
ACAD_PLOTSETTINGS
350
19
  3
ACAD_PLOTSTYLENAME
350
E
  3
ACAD_SCALELIST
350
47
  0
DICTIONARY
  5
D
102
{ACAD_REACTORS
330
C
102
}
330
C
100
AcDbDictionary
281
     1
  0
DICTIONARY
  5
1A
102
{ACAD_REACTORS
330
C
102
}
330
C
100
AcDbDictionary
281
     1
  3
Layout1
350
1E
  3
Layout2
350
26
  3
Model
350
22
  0
DICTIONARY
  5
17
102
{ACAD_REACTORS
330
C
102
}
330
C
100
AcDbDictionary
281
     1
  3
Standard
350
18
  0
DICTIONARY
  5
19
102
{ACAD_REACTORS
330
C
102
}
330
C
100
AcDbDictionary
281
     1
  0
ACDBDICTIONARYWDFLT
  5
E
102
{ACAD_REACTORS
330
C
102
}
330
C
100
AcDbDictionary
281
     1
  3
Normal
350
F
100
AcDbDictionaryWithDefault
340
F
  0
DICTIONARY
  5
47
102
{ACAD_REACTORS
330
C
102
}
330
C
100
AcDbDictionary
281
     1
  3
A0
350
48
  3
A1
350
49
  3
A2
350
4A
  3
A3
350
4B
  3
A4
350
4C
  3
A5
350
4D
  3
A6
350
4E
  3
A7
350
4F
  3
A8
350
50
  3
A9
350
51
  3
B0
350
52
  3
B1
350
53
  3
B2
350
54
  3
B3
350
55
  3
B4
350
56
  3
B5
350
57
  3
B6
350
58
  3
B7
350
59
  3
B8
350
5A
  3
B9
350
5B
  3
C0
350
5C
  3
C1
350
5D
  3
C2
350
5E
  3
C3
350
5F
  3
C4
350
60
  3
C5
350
61
  3
C6
350
62
  3
C7
350
63
  3
C8
350
64
  3
C9
350
65
  3
D0
350
66
  3
D1
350
67
  3
D2
350
68
  0
LAYOUT
  5
1E
102
{ACAD_REACTORS
330
1A
102
}
330
1A
100
AcDbPlotSettings
  1

  2
none_device
  4

  6

 40
0.0
 41
0.0
 42
0.0
 43
0.0
 44
0.0
 45
0.0
 46
0.0
 47
0.0
 48
0.0
 49
0.0
140
0.0
141
0.0
142
1.0
143
1.0
 70
   688
 72
     1
 73
     0
 74
     5
  7

 75
    16
147
1.0
148
0.0
149
0.0
100
AcDbLayout
  1
Layout1
 70
     1
 71
     1
 10
0.0
 20
0.0
 11
420.0
 21
297.0
 12
0.0
 22
0.0
 32
0.0
 14
1.0000000000E+20
 24
1.0000000000E+20
 34
1.0000000000E+20
 15
-1.0000000000E+20
 25
-1.0000000000E+20
 35
-1.0000000000E+20
146
0.0
 13
0.0
 23
0.0
 33
0.0
 16
1.0
 26
0.0
 36
0.0
 17
0.0
 27
1.0
 37
0.0
 76
     0
330
1B
  0
LAYOUT
  5
26
102
{ACAD_REACTORS
330
1A
102
}
330
1A
100
AcDbPlotSettings
  1

  2
none_device
  4

  6

 40
0.0
 41
0.0
 42
0.0
 43
0.0
 44
0.0
 45
0.0
 46
0.0
 47
0.0
 48
0.0
 49
0.0
140
0.0
141
0.0
142
1.0
143
1.0
 70
   688
 72
     1
 73
     0
 74
     5
  7

 75
    16
147
1.0
148
0.0
149
0.0
100
AcDbLayout
  1
Layout2
 70
     1
 71
     2
 10
0.0
 20
0.0
 11
0.0
 21
0.0
 12
0.0
 22
0.0
 32
0.0
 14
0.0
 24
0.0
 34
0.0
 15
0.0
 25
0.0
 35
0.0
146
0.0
 13
0.0
 23
0.0
 33
0.0
 16
1.0
 26
0.0
 36
0.0
 17
0.0
 27
1.0
 37
0.0
 76
     0
330
23
  0
LAYOUT
  5
22
102
{ACAD_REACTORS
330
1A
102
}
330
1A
100
AcDbPlotSettings
  1

  2
none_device
  4
Letter_(8.50_x_11.00_Inches)
  6

 40
6.35
 41
6.35
 42
6.35000508
 43
6.35000508
 44
215.9
 45
279.4
 46
0.0
 47
0.0
 48
0.0
 49
0.0
140
0.0
141
0.0
142
1.0
143
1.0
 70
  1712
 72
     1
 73
     0
 74
     0
  7

 75
     0
147
1.0
148
0.0
149
0.0
100
AcDbLayout
  1
Model
 70
     1
 71
     0
 10
0.0
 20
0.0
 11
279.4
 21
215.9
 12
0.0
 22
0.0
 32
0.0
 14
0.0
 24
0.0
 34
0.0
 15
279.4
 25
215.9
 35
0.0
146
0.0
 13
0.0
 23
0.0
 33
0.0
 16
1.0
 26
0.0
 36
0.0
 17
0.0
 27
1.0
 37
0.0
 76
     0
330
1F
331
29
  0
MLINESTYLE
  5
18
102
{ACAD_REACTORS
330
17
102
}
330
17
100
AcDbMlineStyle
  2
Standard
 70
     0
  3

 62
   256
 51
90.0
 52
90.0
 71
     2
 49
0.5
 62
   256
  6
BYLAYER
 49
-0.5
 62
   256
  6
BYLAYER
  0
ACDBPLACEHOLDER
  5
F
102
{ACAD_REACTORS
330
E
102
}
330
E
  0
SCALE
  5
48
102
{ACAD_REACTORS
330
47
102
}
330
47
100
AcDbScale
 70
     0
300
1:1
140
1.0
141
1.0
290
     1
  0
SCALE
  5
49
102
{ACAD_REACTORS
330
47
102
}
330
47
100
AcDbScale
 70
     0
300
1:2
140
1.0
141
2.0
290
     0
  0
SCALE
  5
4A
102
{ACAD_REACTORS
330
47
102
}
330
47
100
AcDbScale
 70
     0
300
1:4
140
1.0
141
4.0
290
     0
  0
SCALE
  5
4B
102
{ACAD_REACTORS
330
47
102
}
330
47
100
AcDbScale
 70
     0
300
1:5
140
1.0
141
5.0
290
     0
  0
SCALE
  5
4C
102
{ACAD_REACTORS
330
47
102
}
330
47
100
AcDbScale
 70
     0
300
1:8
140
1.0
141
8.0
290
     0
  0
SCALE
  5
4D
102
{ACAD_REACTORS
330
47
102
}
330
47
100
AcDbScale
 70
     0
300
1:10
140
1.0
141
10.0
290
     0
  0
SCALE
  5
4E
102
{ACAD_REACTORS
330
47
102
}
330
47
100
AcDbScale
 70
     0
300
1:16
140
1.0
141
16.0
290
     0
  0
SCALE
  5
4F
102
{ACAD_REACTORS
330
47
102
}
330
47
100
AcDbScale
 70
     0
300
1:20
140
1.0
141
20.0
290
     0
  0
SCALE
  5
50
102
{ACAD_REACTORS
330
47
102
}
330
47
100
AcDbScale
 70
     0
300
1:30
140
1.0
141
30.0
290
     0
  0
SCALE
  5
51
102
{ACAD_REACTORS
330
47
102
}
330
47
100
AcDbScale
 70
     0
300
1:40
140
1.0
141
40.0
290
     0
  0
SCALE
  5
52
102
{ACAD_REACTORS
330
47
102
}
330
47
100
AcDbScale
 70
     0
300
1:50
140
1.0
141
50.0
290
     0
  0
SCALE
  5
53
102
{ACAD_REACTORS
330
47
102
}
330
47
100
AcDbScale
 70
     0
300
1:100
140
1.0
141
100.0
290
     0
  0
SCALE
  5
54
102
{ACAD_REACTORS
330
47
102
}
330
47
100
AcDbScale
 70
     0
300
2:1
140
2.0
141
1.0
290
     0
  0
SCALE
  5
55
102
{ACAD_REACTORS
330
47
102
}
330
47
100
AcDbScale
 70
     0
300
4:1
140
4.0
141
1.0
290
     0
  0
SCALE
  5
56
102
{ACAD_REACTORS
330
47
102
}
330
47
100
AcDbScale
 70
     0
300
8:1
140
8.0
141
1.0
290
     0
  0
SCALE
  5
57
102
{ACAD_REACTORS
330
47
102
}
330
47
100
AcDbScale
 70
     0
300
10:1
140
10.0
141
1.0
290
     0
  0
SCALE
  5
58
102
{ACAD_REACTORS
330
47
102
}
330
47
100
AcDbScale
 70
     0
300
100:1
140
100.0
141
1.0
290
     0
  0
SCALE
  5
59
102
{ACAD_REACTORS
330
47
102
}
330
47
100
AcDbScale
 70
     0
300
1/128" = 1'-0"
140
0.0078125
141
12.0
290
     0
  0
SCALE
  5
5A
102
{ACAD_REACTORS
330
47
102
}
330
47
100
AcDbScale
 70
     0
300
1/64" = 1'-0"
140
0.015625
141
12.0
290
     0
  0
SCALE
  5
5B
102
{ACAD_REACTORS
330
47
102
}
330
47
100
AcDbScale
 70
     0
300
1/32" = 1'-0"
140
0.03125
141
12.0
290
     0
  0
SCALE
  5
5C
102
{ACAD_REACTORS
330
47
102
}
330
47
100
AcDbScale
 70
     0
300
1/16" = 1'-0"
140
0.0625
141
12.0
290
     0
  0
SCALE
  5
5D
102
{ACAD_REACTORS
330
47
102
}
330
47
100
AcDbScale
 70
     0
300
3/32" = 1'-0"
140
0.09375
141
12.0
290
     0
  0
SCALE
  5
5E
102
{ACAD_REACTORS
330
47
102
}
330
47
100
AcDbScale
 70
     0
300
1/8" = 1'-0"
140
0.125
141
12.0
290
     0
  0
SCALE
  5
5F
102
{ACAD_REACTORS
330
47
102
}
330
47
100
AcDbScale
 70
     0
300
3/16" = 1'-0"
140
0.1875
141
12.0
290
     0
  0
SCALE
  5
60
102
{ACAD_REACTORS
330
47
102
}
330
47
100
AcDbScale
 70
     0
300
1/4" = 1'-0"
140
0.25
141
12.0
290
     0
  0
SCALE
  5
61
102
{ACAD_REACTORS
330
47
102
}
330
47
100
AcDbScale
 70
     0
300
3/8" = 1'-0"
140
0.375
141
12.0
290
     0
  0
SCALE
  5
62
102
{ACAD_REACTORS
330
47
102
}
330
47
100
AcDbScale
 70
     0
300
1/2" = 1'-0"
140
0.5
141
12.0
290
     0
  0
SCALE
  5
63
102
{ACAD_REACTORS
330
47
102
}
330
47
100
AcDbScale
 70
     0
300
3/4" = 1'-0"
140
0.75
141
12.0
290
     0
  0
SCALE
  5
64
102
{ACAD_REACTORS
330
47
102
}
330
47
100
AcDbScale
 70
     0
300
1" = 1'-0"
140
1.0
141
12.0
290
     0
  0
SCALE
  5
65
102
{ACAD_REACTORS
330
47
102
}
330
47
100
AcDbScale
 70
     0
300
1-1/2" = 1'-0"
140
1.5
141
12.0
290
     0
  0
SCALE
  5
66
102
{ACAD_REACTORS
330
47
102
}
330
47
100
AcDbScale
 70
     0
300
3" = 1'-0"
140
3.0
141
12.0
290
     0
  0
SCALE
  5
67
102
{ACAD_REACTORS
330
47
102
}
330
47
100
AcDbScale
 70
     0
300
6" = 1'-0"
140
6.0
141
12.0
290
     0
  0
SCALE
  5
68
102
{ACAD_REACTORS
330
47
102
}
330
47
100
AcDbScale
 70
     0
300
1'-0" = 1'-0"
140
12.0
141
12.0
290
     0
  0
ENDSEC
  0
EOF
